  0
SECTION
  2
HEADER
  9
$ACADVER
  1
AC1009
  9
$DWGCODEPAGE
  3
ansi_1252
  9
$INSBASE
 10
0.0
 20
0.0
 30
0.0
  9
$EXTMIN
 10
-33.00952117213819
 20
-197.257120307447
 30
0.0
  9
$EXTMAX
 10
297.0856905492199
 20
197.257120307446
 30
0.0
  9
$LIMMIN
 10
0.0
 20
0.0
  9
$LIMMAX
 10
420.0
 20
297.0
  9
$ORTHOMODE
 70
     0
  9
$REGENMODE
 70
     1
  9
$FILLMODE
 70
     1
  9
$QTEXTMODE
 70
     0
  9
$MIRRTEXT
 70
     0
  9
$DRAGMODE
 70
     2
  9
$LTSCALE
 40
1.0
  9
$OSMODE
 70
    37
  9
$ATTMODE
 70
     1
  9
$TEXTSIZE
 40
30.0
  9
$TRACEWID
 40
1.0
  9
$TEXTSTYLE
  7
STANDARD
  9
$CLAYER
  8
0
  9
$CELTYPE
  6
BYLAYER
  9
$CECOLOR
 62
   256
  9
$DIMSCALE
 40
1.0
  9
$DIMASZ
 40
30.0
  9
$DIMEXO
 40
0.625
  9
$DIMDLI
 40
3.75
  9
$DIMRND
 40
0.0
  9
$DIMDLE
 40
0.0
  9
$DIMEXE
 40
1.25
  9
$DIMTP
 40
0.0
  9
$DIMTM
 40
0.0
  9
$DIMTXT
 40
30.0
  9
$DIMCEN
 40
2.5
  9
$DIMTSZ
 40
0.0
  9
$DIMTOL
 70
     0
  9
$DIMLIM
 70
     0
  9
$DIMTIH
 70
     0
  9
$DIMTOH
 70
     0
  9
$DIMSE1
 70
     0
  9
$DIMSE2
 70
     0
  9
$DIMTAD
 70
     1
  9
$DIMZIN
 70
     8
  9
$DIMBLK
  1

  9
$DIMASO
 70
     1
  9
$DIMSHO
 70
     1
  9
$DIMPOST
  1

  9
$DIMAPOST
  1

  9
$DIMALT
 70
     0
  9
$DIMALTD
 70
     3
  9
$DIMALTF
 40
0.03937007874016
  9
$DIMLFAC
 40
1.0
  9
$DIMTOFL
 70
     1
  9
$DIMTVP
 40
0.0
  9
$DIMTIX
 70
     0
  9
$DIMSOXD
 70
     0
  9
$DIMSAH
 70
     0
  9
$DIMBLK1
  1

  9
$DIMBLK2
  1

  9
$DIMSTYLE
  2
ISO-25
  9
$DIMCLRD
 70
     0
  9
$DIMCLRE
 70
     0
  9
$DIMCLRT
 70
     0
  9
$DIMTFAC
 40
1.0
  9
$DIMGAP
 40
0.625
  9
$LUNITS
 70
     2
  9
$LUPREC
 70
     4
  9
$SKETCHINC
 40
1.0
  9
$FILLETRAD
 40
0.0
  9
$AUNITS
 70
     0
  9
$AUPREC
 70
     0
  9
$MENU
  1
.
  9
$ELEVATION
 40
0.0
  9
$PELEVATION
 40
0.0
  9
$THICKNESS
 40
0.0
  9
$LIMCHECK
 70
     0
  9
$CHAMFERA
 40
0.0
  9
$CHAMFERB
 40
0.0
  9
$SKPOLY
 70
     0
  9
$TDCREATE
 40
2453353.800459155
  9
$TDUPDATE
 40
2458724.145515556
  9
$TDINDWG
 40
2440852.080755556
  9
$TDUSRTIMER
 40
2440852.080755556
  9
$USRTIMER
 70
     1
  9
$ANGBASE
 50
0.0
  9
$ANGDIR
 70
     0
  9
$PDMODE
 70
     0
  9
$PDSIZE
 40
0.0
  9
$PLINEWID
 40
0.0
  9
$COORDS
 70
     1
  9
$SPLFRAME
 70
     0
  9
$SPLINETYPE
 70
     6
  9
$SPLINESEGS
 70
     8
  9
$ATTDIA
 70
     0
  9
$ATTREQ
 70
     1
  9
$HANDLING
 70
     1
  9
$HANDSEED
  5
F0
  9
$SURFTAB1
 70
     6
  9
$SURFTAB2
 70
     6
  9
$SURFTYPE
 70
     6
  9
$SURFU
 70
     6
  9
$SURFV
 70
     6
  9
$UCSNAME
  2

  9
$UCSORG
 10
0.0
 20
0.0
 30
0.0
  9
$UCSXDIR
 10
1.0
 20
0.0
 30
0.0
  9
$UCSYDIR
 10
0.0
 20
1.0
 30
0.0
  9
$PUCSNAME
  2

  9
$PUCSORG
 10
0.0
 20
0.0
 30
0.0
  9
$PUCSXDIR
 10
1.0
 20
0.0
 30
0.0
  9
$PUCSYDIR
 10
0.0
 20
1.0
 30
0.0
  9
$USERI1
 70
     0
  9
$USERI2
 70
     0
  9
$USERI3
 70
     0
  9
$USERI4
 70
     0
  9
$USERI5
 70
     0
  9
$USERR1
 40
0.0
  9
$USERR2
 40
0.0
  9
$USERR3
 40
0.0
  9
$USERR4
 40
0.0
  9
$USERR5
 40
0.0
  9
$WORLDVIEW
 70
     1
  9
$SHADEDGE
 70
     3
  9
$SHADEDIF
 70
    70
  9
$TILEMODE
 70
     1
  9
$MAXACTVP
 70
    64
  9
$PLIMCHECK
 70
     0
  9
$PEXTMIN
 10
1.000000000000000E+20
 20
1.000000000000000E+20
 30
1.000000000000000E+20
  9
$PEXTMAX
 10
-1.000000000000000E+20
 20
-1.000000000000000E+20
 30
-1.000000000000000E+20
  9
$PLIMMIN
 10
0.0
 20
0.0
  9
$PLIMMAX
 10
420.0
 20
297.0
  9
$UNITMODE
 70
     0
  9
$VISRETAIN
 70
     1
  9
$PLINEGEN
 70
     0
  9
$PSLTSCALE
 70
     1
  0
ENDSEC
  0
SECTION
  2
TABLES
  0
TABLE
  2
VPORT
 70
     1
  0
VPORT
  2
*ACTIVE
 70
     0
 10
0.0
 20
0.0
 11
1.0
 21
1.0
 12
160.8458205941686
 22
5.483112635356033
 13
0.0
 23
0.0
 14
10.0
 24
10.0
 15
10.0
 25
10.0
 16
0.0
 26
0.0
 36
1.0
 17
0.0
 27
0.0
 37
0.0
 40
630.2804570461082
 41
1.664827586206897
 42
50.0
 43
0.0
 44
0.0
 50
0.0
 51
0.0
 71
    16
 72
  1000
 73
     1
 74
     3
 75
     0
 76
     0
 77
     0
 78
     0
  0
ENDTAB
  0
TABLE
  2
LTYPE
 70
     1
  0
LTYPE
  2
CONTINUOUS
 70
     0
  3
Solid line
 72
    65
 73
     0
 40
0.0
  0
ENDTAB
  0
TABLE
  2
LAYER
 70
     2
  0
LAYER
  2
0
 70
     0
 62
     7
  6
CONTINUOUS
  0
LAYER
  2
DEFPOINTS
 70
     0
 62
     7
  6
CONTINUOUS
  0
ENDTAB
  0
TABLE
  2
STYLE
 70
     1
  0
STYLE
  2
STANDARD
 70
     0
 40
0.0
 41
1.0
 50
0.0
 71
     0
 42
2.5
  3
txt
  4

  0
ENDTAB
  0
TABLE
  2
VIEW
 70
     0
  0
ENDTAB
  0
TABLE
  2
UCS
 70
     0
  0
ENDTAB
  0
TABLE
  2
APPID
 70
     1
  0
APPID
  2
ACAD
 70
     0
  0
ENDTAB
  0
TABLE
  2
DIMSTYLE
 70
     2
  0
DIMSTYLE
  2
STANDARD
 70
     0
  3

  4

  5

  6

  7

 40
1.0
 41
0.18
 42
0.0625
 43
0.38
 44
0.18
 45
0.0
 46
0.0
 47
0.0
 48
0.0
140
0.18
141
0.09
142
0.0
143
25.4
144
1.0
145
0.0
146
1.0
147
0.09
 71
     0
 72
     0
 73
     1
 74
     1
 75
     0
 76
     0
 77
     0
 78
     0
170
     0
171
     2
172
     0
173
     0
174
     0
175
     0
176
     0
177
     0
178
     0
  0
DIMSTYLE
  2
ISO-25
 70
     0
  3

  4

  5

  6

  7

 40
1.0
 41
2.5
 42
0.625
 43
3.75
 44
1.25
 45
0.0
 46
0.0
 47
0.0
 48
0.0
140
2.5
141
2.5
142
0.0
143
0.03937007874016
144
1.0
145
0.0
146
1.0
147
0.625
 71
     0
 72
     0
 73
     0
 74
     0
 75
     0
 76
     0
 77
     1
 78
     8
170
     0
171
     3
172
     1
173
     0
174
     0
175
     0
176
     0
177
     0
178
     0
  0
ENDTAB
  0
ENDSEC
  0
SECTION
  2
BLOCKS
  0
BLOCK
  8
0
  2
$MODEL_SPACE
 70
     0
 10
0.0
 20
0.0
 30
0.0
  3
$MODEL_SPACE
  1

  0
ENDBLK
  5
21
  8
0
  0
BLOCK
 67
     1
  8
0
  2
$PAPER_SPACE
 70
     0
 10
0.0
 20
0.0
 30
0.0
  3
$PAPER_SPACE
  1

  0
ENDBLK
  5
76
 67
     1
  8
0
  0
BLOCK
  8
0
  2
*D1
 70
     1
 10
0.0
 20
0.0
 30
0.0
  3
*D1
  1

  0
POINT
  5
37
  8
DEFPOINTS
  6
BYBLOCK
 62
     0
 10
-848.5637797865295
 20
436.7898912605028
 30
0.0
  0
POINT
  5
38
  8
DEFPOINTS
  6
BYBLOCK
 62
     0
 10
-650.5066527537164
 20
436.7898912605016
 30
0.0
  0
LINE
  5
39
  8
0
  6
BYBLOCK
 62
     0
 10
-848.5637797865295
 20
436.1648912605028
 30
0.0
 11
-848.5637797865295
 21
381.1420271846553
 31
0.0
  0
LINE
  5
3A
  8
0
  6
BYBLOCK
 62
     0
 10
-650.5066527537164
 20
436.1648912605016
 30
0.0
 11
-650.5066527537164
 21
381.1420271846553
 31
0.0
  0
LINE
  5
3B
  8
0
  6
BYBLOCK
 62
     0
 10
-818.5637797865295
 20
382.3920271846553
 30
0.0
 11
-680.5066527537164
 21
382.3920271846553
 31
0.0
  0
SOLID
  5
3C
  8
0
  6
BYBLOCK
 62
     0
 10
-848.5637797865295
 20
382.3920271846553
 30
0.0
 11
-818.5637797865295
 21
377.3920271846542
 31
0.0
 12
-818.5637797865295
 22
387.3920271846563
 32
0.0
 13
-818.5637797865295
 23
387.3920271846563
 33
0.0
  0
SOLID
  5
3D
  8
0
  6
BYBLOCK
 62
     0
 10
-650.5066527537164
 20
382.3920271846553
 30
0.0
 11
-680.5066527537164
 21
377.3920271846542
 31
0.0
 12
-680.5066527537164
 22
387.3920271846563
 32
0.0
 13
-680.5066527537164
 23
387.3920271846563
 33
0.0
  0
TEXT
  5
3E
  8
0
  6
BYBLOCK
 62
     0
 10
-784.6352162701229
 20
383.0170271846553
 30
0.0
 40
30.0
  1
198
  0
ENDBLK
  5
D1
  8
0
  0
BLOCK
  8
0
  2
*D2
 70
     1
 10
0.0
 20
0.0
 30
0.0
  3
*D2
  1

  0
POINT
  5
42
  8
DEFPOINTS
  6
BYBLOCK
 62
     0
 10
-848.5637797865295
 20
408.6534592225796
 30
0.0
  0
POINT
  5
43
  8
DEFPOINTS
  6
BYBLOCK
 62
     0
 10
-650.5066527537164
 20
408.6534592225785
 30
0.0
  0
LINE
  5
44
  8
0
  6
BYBLOCK
 62
     0
 10
-848.5637797865295
 20
408.0284592225796
 30
0.0
 11
-848.5637797865295
 21
353.0055951467321
 31
0.0
  0
LINE
  5
45
  8
0
  6
BYBLOCK
 62
     0
 10
-650.5066527537164
 20
408.0284592225785
 30
0.0
 11
-650.5066527537164
 21
353.0055951467321
 31
0.0
  0
LINE
  5
46
  8
0
  6
BYBLOCK
 62
     0
 10
-818.5637797865295
 20
354.2555951467321
 30
0.0
 11
-680.5066527537164
 21
354.2555951467321
 31
0.0
  0
SOLID
  5
47
  8
0
  6
BYBLOCK
 62
     0
 10
-848.5637797865295
 20
354.2555951467321
 30
0.0
 11
-818.5637797865295
 21
349.2555951467311
 31
0.0
 12
-818.5637797865295
 22
359.2555951467331
 32
0.0
 13
-818.5637797865295
 23
359.2555951467331
 33
0.0
  0
SOLID
  5
48
  8
0
  6
BYBLOCK
 62
     0
 10
-650.5066527537164
 20
354.2555951467321
 30
0.0
 11
-680.5066527537164
 21
349.2555951467311
 31
0.0
 12
-680.5066527537164
 22
359.2555951467331
 32
0.0
 13
-680.5066527537164
 23
359.2555951467331
 33
0.0
  0
TEXT
  5
49
  8
0
  6
BYBLOCK
 62
     0
 10
-784.6352162701229
 20
354.8805951467321
 30
0.0
 40
30.0
  1
198
  0
ENDBLK
  5
D3
  8
0
  0
BLOCK
  8
0
  2
*D3
 70
     1
 10
0.0
 20
0.0
 30
0.0
  3
*D3
  1

  0
POINT
  5
4E
  8
DEFPOINTS
  6
BYBLOCK
 62
     0
 10
-914.5828221308059
 20
831.3041318753946
 30
0.0
  0
POINT
  5
4F
  8
DEFPOINTS
  6
BYBLOCK
 62
     0
 10
-584.4876104094478
 20
831.3041318753947
 30
0.0
  0
LINE
  5
50
  8
0
  6
BYBLOCK
 62
     0
 10
-914.5828221308059
 20
831.9291318753946
 30
0.0
 11
-914.5828221308059
 21
882.8673335283064
 31
0.0
  0
LINE
  5
51
  8
0
  6
BYBLOCK
 62
     0
 10
-584.4876104094478
 20
831.9291318753947
 30
0.0
 11
-584.4876104094478
 21
882.8673335283064
 31
0.0
  0
LINE
  5
52
  8
0
  6
BYBLOCK
 62
     0
 10
-884.5828221308059
 20
881.6173335283064
 30
0.0
 11
-614.4876104094478
 21
881.6173335283064
 31
0.0
  0
SOLID
  5
53
  8
0
  6
BYBLOCK
 62
     0
 10
-914.5828221308059
 20
881.6173335283064
 30
0.0
 11
-884.5828221308059
 21
876.6173335283054
 31
0.0
 12
-884.5828221308059
 22
886.6173335283074
 32
0.0
 13
-884.5828221308059
 23
886.6173335283074
 33
0.0
  0
SOLID
  5
54
  8
0
  6
BYBLOCK
 62
     0
 10
-584.4876104094478
 20
881.6173335283064
 30
0.0
 11
-614.4876104094478
 21
876.6173335283054
 31
0.0
 12
-614.4876104094478
 22
886.6173335283074
 32
0.0
 13
-614.4876104094478
 23
886.6173335283074
 33
0.0
  0
TEXT
  5
55
  8
0
  6
BYBLOCK
 62
     0
 10
-787.0352162701269
 20
882.2423335283064
 30
0.0
 40
30.0
  1
330
  0
ENDBLK
  5
D5
  8
0
  0
BLOCK
  8
0
  2
*D4
 70
     1
 10
0.0
 20
0.0
 30
0.0
  3
*D4
  1

  0
POINT
  5
A7
  8
DEFPOINTS
  6
BYBLOCK
 62
     0
 10
-914.5828221308059
 20
856.7732327018504
 30
0.0
  0
POINT
  5
A8
  8
DEFPOINTS
  6
BYBLOCK
 62
     0
 10
-584.4876104094478
 20
856.7732327018505
 30
0.0
  0
LINE
  5
5B
  8
0
  6
BYBLOCK
 62
     0
 10
-914.5828221308059
 20
857.3982327018504
 30
0.0
 11
-914.5828221308059
 21
908.3364343547622
 31
0.0
  0
LINE
  5
5C
  8
0
  6
BYBLOCK
 62
     0
 10
-584.4876104094478
 20
857.3982327018505
 30
0.0
 11
-584.4876104094478
 21
908.3364343547622
 31
0.0
  0
LINE
  5
5D
  8
0
  6
BYBLOCK
 62
     0
 10
-884.5828221308059
 20
907.0864343547622
 30
0.0
 11
-614.4876104094478
 21
907.0864343547622
 31
0.0
  0
SOLID
  5
A9
  8
0
  6
BYBLOCK
 62
     0
 10
-914.5828221308059
 20
907.0864343547622
 30
0.0
 11
-884.5828221308059
 21
902.0864343547612
 31
0.0
 12
-884.5828221308059
 22
912.0864343547632
 32
0.0
 13
-884.5828221308059
 23
912.0864343547632
 33
0.0
  0
SOLID
  5
5F
  8
0
  6
BYBLOCK
 62
     0
 10
-584.4876104094478
 20
907.0864343547622
 30
0.0
 11
-614.4876104094478
 21
902.0864343547612
 31
0.0
 12
-614.4876104094478
 22
912.0864343547632
 32
0.0
 13
-614.4876104094478
 23
912.0864343547632
 33
0.0
  0
TEXT
  5
60
  8
0
  6
BYBLOCK
 62
     0
 10
-787.0352162701269
 20
907.7114343547622
 30
0.0
 40
30.0
  1
330
  0
ENDBLK
  5
D7
  8
0
  0
BLOCK
  8
0
  2
*D5
 70
     1
 10
0.0
 20
0.0
 30
0.0
  3
*D5
  1

  0
POINT
  5
66
  8
DEFPOINTS
  6
BYBLOCK
 62
     0
 10
-584.4876104094478
 20
831.3041318753947
 30
0.0
  0
POINT
  5
67
  8
DEFPOINTS
  6
BYBLOCK
 62
     0
 10
-650.5066527537164
 20
436.7898912605016
 30
0.0
  0
LINE
  5
68
  8
0
  6
BYBLOCK
 62
     0
 10
-583.8711819084871
 20
831.2009771217317
 30
0.0
 11
-519.6660798128407
 21
820.4567278207078
 31
0.0
  0
LINE
  5
69
  8
0
  6
BYBLOCK
 62
     0
 10
-649.8902242527556
 20
436.6867365068387
 30
0.0
 11
-585.6851221571092
 21
425.9424872058147
 31
0.0
  0
LINE
  5
6A
  8
0
  6
BYBLOCK
 62
     0
 10
-525.8503649905824
 20
791.0744692819167
 30
0.0
 11
-581.9665509832106
 21
455.7373647592576
 31
0.0
  0
SOLID
  5
AA
  8
0
  6
BYBLOCK
 62
     0
 10
-520.8989368147622
 20
820.6630373280336
 30
0.0
 11
-530.7817929982696
 21
791.8997073112201
 31
0.0
 12
-520.9189369828953
 22
790.2492312526132
 32
0.0
 13
-520.9189369828953
 23
790.2492312526132
 33
0.0
  0
SOLID
  5
AB
  8
0
  6
BYBLOCK
 62
     0
 10
-586.9179791590308
 20
426.1487967131405
 30
0.0
 11
-586.8979789908977
 21
456.562602788561
 31
0.0
 12
-577.0351229755235
 22
454.912126729954
 32
0.0
 13
-577.0351229755235
 23
454.912126729954
 33
0.0
  0
TEXT
  5
6D
  8
0
  6
BYBLOCK
 62
     0
 10
-560.2933003126879
 20
589.0383900005236
 30
0.0
 40
30.0
  1
400
 50
80.50000000000038
  0
ENDBLK
  5
D9
  8
0
  0
BLOCK
  8
0
  2
*D6
 70
     1
 10
0.0
 20
0.0
 30
0.0
  3
*D6
  1

  0
POINT
  5
71
  8
DEFPOINTS
  6
BYBLOCK
 62
     0
 10
-551.768630860664
 20
825.8288524712198
 30
0.0
  0
POINT
  5
72
  8
DEFPOINTS
  6
BYBLOCK
 62
     0
 10
-617.7876732049325
 20
431.3146118563267
 30
0.0
  0
LINE
  5
AC
  8
0
  6
BYBLOCK
 62
     0
 10
-551.1522023597032
 20
825.7256977175568
 30
0.0
 11
-486.9471002640569
 21
814.9814484165329
 31
0.0
  0
LINE
  5
AD
  8
0
  6
BYBLOCK
 62
     0
 10
-617.1712447039718
 20
431.2114571026638
 30
0.0
 11
-552.9661426083254
 21
420.4672078016399
 31
0.0
  0
LINE
  5
AE
  8
0
  6
BYBLOCK
 62
     0
 10
-493.1313854417986
 20
785.5991898777418
 30
0.0
 11
-549.2475714344267
 21
450.2620853550827
 31
0.0
  0
SOLID
  5
AF
  8
0
  6
BYBLOCK
 62
     0
 10
-488.1799572659784
 20
815.1877579238587
 30
0.0
 11
-498.0628134494857
 21
786.4244279070452
 31
0.0
 12
-488.1999574341114
 22
784.7739518484383
 32
0.0
 13
-488.1999574341114
 23
784.7739518484383
 33
0.0
  0
SOLID
  5
77
  8
0
  6
BYBLOCK
 62
     0
 10
-554.1989996102469
 20
420.6735173089656
 30
0.0
 11
-554.1789994421139
 21
451.0873233843862
 31
0.0
 12
-544.3161434267396
 22
449.4368473257791
 32
0.0
 13
-544.3161434267396
 23
449.4368473257791
 33
0.0
  0
TEXT
  5
78
  8
0
  6
BYBLOCK
 62
     0
 10
-527.574320763904
 20
583.5631105963488
 30
0.0
 40
30.0
  1
400
 50
80.50000000000038
  0
ENDBLK
  5
DB
  8
0
  0
BLOCK
  8
0
  2
NRE-307
 70
     0
 10
0.0
 20
0.0
 30
0.0
  3
NRE-307
  1

  0
POLYLINE
  5
C5
  8
0
 66
     1
 10
0.0
 20
0.0
 30
0.0
 40
9.0
 41
9.0
  0
VERTEX
  5
E8
  8
0
 10
0.0000000000027285
 20
-0.0000000000004547
 30
0.0
 42
-0.0830935922472288
  0
VERTEX
  5
E9
  8
0
 10
264.0761693770869
 20
-0.0000000000006821
 30
0.0
 42
-12.03462232111342
  0
SEQEND
  5
E7
  8
0
  0
POLYLINE
  5
C6
  8
0
 66
     1
 10
0.0
 20
0.0
 30
0.0
  0
VERTEX
  5
EB
  8
0
 10
-33.00952117213819
 20
197.2571203074459
 30
0.0
  0
VERTEX
  5
EC
  8
0
 10
297.0856905492199
 20
197.257120307446
 30
0.0
  0
VERTEX
  5
ED
  8
0
 10
231.0666482049513
 20
-197.257120307447
 30
0.0
  0
VERTEX
  5
EE
  8
0
 10
33.00952117213819
 20
-197.2571203074459
 30
0.0
  0
VERTEX
  5
EF
  8
0
 10
-33.00952117213819
 20
197.2571203074459
 30
0.0
  0
SEQEND
  5
EA
  8
0
  0
TEXT
  5
C7
  8
0
 10
16.34015564385743
 20
87.60493675010901
 30
0.0
 40
30.0
  1
19° r=800
  0
TEXT
  5
C8
  8
0
 10
58.55044109187998
 20
-84.54061484483304
 30
0.0
 40
25.0
  1
NRE-307
  0
TEXT
  5
C9
  8
0
 10
100.1152903815203
 20
-171.1885099569712
 30
0.0
 40
20.0
  1
DiLue
  0
ENDBLK
  5
DD
  8
0
  0
ENDSEC
  0
SECTION
  2
ENTITIES
  0
INSERT
  5
CC
  8
0
  2
NRE-307
 10
0.0
 20
0.0
 30
0.0
  0
ENDSEC
  0
EOF
