  0
SECTION
  2
HEADER
  9
$ACADVER
  1
AC1009
  9
$DWGCODEPAGE
  3
ansi_1252
  9
$INSBASE
 10
0.0
 20
0.0
 30
0.0
  9
$EXTMIN
 10
0.0
 20
-900.0
 30
0.0
  9
$EXTMAX
 10
1800.000000000013
 20
900.0
 30
0.0
  9
$LIMMIN
 10
0.0
 20
0.0
  9
$LIMMAX
 10
420.0
 20
297.0
  9
$ORTHOMODE
 70
     0
  9
$REGENMODE
 70
     1
  9
$FILLMODE
 70
     1
  9
$QTEXTMODE
 70
     0
  9
$MIRRTEXT
 70
     0
  9
$DRAGMODE
 70
     2
  9
$LTSCALE
 40
1.0
  9
$OSMODE
 70
    37
  9
$ATTMODE
 70
     1
  9
$TEXTSIZE
 40
25.0
  9
$TRACEWID
 40
1.0
  9
$TEXTSTYLE
  7
STANDARD
  9
$CLAYER
  8
0
  9
$CELTYPE
  6
BYLAYER
  9
$CECOLOR
 62
   256
  9
$DIMSCALE
 40
1.0
  9
$DIMASZ
 40
2.5
  9
$DIMEXO
 40
0.625
  9
$DIMDLI
 40
3.75
  9
$DIMRND
 40
0.0
  9
$DIMDLE
 40
0.0
  9
$DIMEXE
 40
1.25
  9
$DIMTP
 40
0.0
  9
$DIMTM
 40
0.0
  9
$DIMTXT
 40
2.5
  9
$DIMCEN
 40
2.5
  9
$DIMTSZ
 40
0.0
  9
$DIMTOL
 70
     0
  9
$DIMLIM
 70
     0
  9
$DIMTIH
 70
     0
  9
$DIMTOH
 70
     0
  9
$DIMSE1
 70
     0
  9
$DIMSE2
 70
     0
  9
$DIMTAD
 70
     1
  9
$DIMZIN
 70
     8
  9
$DIMBLK
  1

  9
$DIMASO
 70
     1
  9
$DIMSHO
 70
     1
  9
$DIMPOST
  1

  9
$DIMAPOST
  1

  9
$DIMALT
 70
     0
  9
$DIMALTD
 70
     3
  9
$DIMALTF
 40
0.03937007874016
  9
$DIMLFAC
 40
1.0
  9
$DIMTOFL
 70
     1
  9
$DIMTVP
 40
0.0
  9
$DIMTIX
 70
     0
  9
$DIMSOXD
 70
     0
  9
$DIMSAH
 70
     0
  9
$DIMBLK1
  1

  9
$DIMBLK2
  1

  9
$DIMSTYLE
  2
ISO-25
  9
$DIMCLRD
 70
     0
  9
$DIMCLRE
 70
     0
  9
$DIMCLRT
 70
     0
  9
$DIMTFAC
 40
1.0
  9
$DIMGAP
 40
0.625
  9
$LUNITS
 70
     2
  9
$LUPREC
 70
     4
  9
$SKETCHINC
 40
1.0
  9
$FILLETRAD
 40
0.0
  9
$AUNITS
 70
     0
  9
$AUPREC
 70
     0
  9
$MENU
  1
.
  9
$ELEVATION
 40
0.0
  9
$PELEVATION
 40
0.0
  9
$THICKNESS
 40
0.0
  9
$LIMCHECK
 70
     0
  9
$CHAMFERA
 40
0.0
  9
$CHAMFERB
 40
0.0
  9
$SKPOLY
 70
     0
  9
$TDCREATE
 40
2453353.758792488
  9
$TDUPDATE
 40
2457470.112525926
  9
$TDINDWG
 40
2440852.080755556
  9
$TDUSRTIMER
 40
2440852.080755556
  9
$USRTIMER
 70
     1
  9
$ANGBASE
 50
0.0
  9
$ANGDIR
 70
     0
  9
$PDMODE
 70
     0
  9
$PDSIZE
 40
0.0
  9
$PLINEWID
 40
0.0
  9
$COORDS
 70
     1
  9
$SPLFRAME
 70
     0
  9
$SPLINETYPE
 70
     6
  9
$SPLINESEGS
 70
     8
  9
$ATTDIA
 70
     0
  9
$ATTREQ
 70
     1
  9
$HANDLING
 70
     1
  9
$HANDSEED
  5
3F5
  9
$SURFTAB1
 70
     6
  9
$SURFTAB2
 70
     6
  9
$SURFTYPE
 70
     6
  9
$SURFU
 70
     6
  9
$SURFV
 70
     6
  9
$UCSNAME
  2

  9
$UCSORG
 10
0.0
 20
0.0
 30
0.0
  9
$UCSXDIR
 10
1.0
 20
0.0
 30
0.0
  9
$UCSYDIR
 10
0.0
 20
1.0
 30
0.0
  9
$PUCSNAME
  2

  9
$PUCSORG
 10
0.0
 20
0.0
 30
0.0
  9
$PUCSXDIR
 10
1.0
 20
0.0
 30
0.0
  9
$PUCSYDIR
 10
0.0
 20
1.0
 30
0.0
  9
$USERI1
 70
     0
  9
$USERI2
 70
     0
  9
$USERI3
 70
     0
  9
$USERI4
 70
     0
  9
$USERI5
 70
     0
  9
$USERR1
 40
0.0
  9
$USERR2
 40
0.0
  9
$USERR3
 40
0.0
  9
$USERR4
 40
0.0
  9
$USERR5
 40
0.0
  9
$WORLDVIEW
 70
     1
  9
$SHADEDGE
 70
     3
  9
$SHADEDIF
 70
    70
  9
$TILEMODE
 70
     1
  9
$MAXACTVP
 70
    64
  9
$PLIMCHECK
 70
     0
  9
$PEXTMIN
 10
1.000000000000000E+20
 20
1.000000000000000E+20
 30
1.000000000000000E+20
  9
$PEXTMAX
 10
-1.000000000000000E+20
 20
-1.000000000000000E+20
 30
-1.000000000000000E+20
  9
$PLIMMIN
 10
0.0
 20
0.0
  9
$PLIMMAX
 10
420.0
 20
297.0
  9
$UNITMODE
 70
     0
  9
$VISRETAIN
 70
     1
  9
$PLINEGEN
 70
     0
  9
$PSLTSCALE
 70
     1
  0
ENDSEC
  0
SECTION
  2
TABLES
  0
TABLE
  2
VPORT
 70
     1
  0
VPORT
  2
*ACTIVE
 70
     0
 10
0.0
 20
0.0
 11
1.0
 21
1.0
 12
1479.095867381044
 22
-46.14662935510529
 13
0.0
 23
0.0
 14
10.0
 24
10.0
 15
10.0
 25
10.0
 16
0.0
 26
0.0
 36
1.0
 17
0.0
 27
0.0
 37
0.0
 40
2417.096749065966
 41
1.664827586206897
 42
50.0
 43
0.0
 44
0.0
 50
0.0
 51
0.0
 71
    16
 72
  1000
 73
     1
 74
     3
 75
     0
 76
     0
 77
     0
 78
     0
  0
ENDTAB
  0
TABLE
  2
LTYPE
 70
     1
  0
LTYPE
  2
CONTINUOUS
 70
     0
  3
Solid line
 72
    65
 73
     0
 40
0.0
  0
ENDTAB
  0
TABLE
  2
LAYER
 70
     1
  0
LAYER
  2
0
 70
     0
 62
     7
  6
CONTINUOUS
  0
ENDTAB
  0
TABLE
  2
STYLE
 70
     1
  0
STYLE
  2
STANDARD
 70
     0
 40
0.0
 41
1.0
 50
0.0
 71
     0
 42
2.5
  3
txt
  4

  0
ENDTAB
  0
TABLE
  2
VIEW
 70
     0
  0
ENDTAB
  0
TABLE
  2
UCS
 70
     0
  0
ENDTAB
  0
TABLE
  2
APPID
 70
     1
  0
APPID
  2
ACAD
 70
     0
  0
ENDTAB
  0
TABLE
  2
DIMSTYLE
 70
     2
  0
DIMSTYLE
  2
STANDARD
 70
     0
  3

  4

  5

  6

  7

 40
1.0
 41
0.18
 42
0.0625
 43
0.38
 44
0.18
 45
0.0
 46
0.0
 47
0.0
 48
0.0
140
0.18
141
0.09
142
0.0
143
25.4
144
1.0
145
0.0
146
1.0
147
0.09
 71
     0
 72
     0
 73
     1
 74
     1
 75
     0
 76
     0
 77
     0
 78
     0
170
     0
171
     2
172
     0
173
     0
174
     0
175
     0
176
     0
177
     0
178
     0
  0
DIMSTYLE
  2
ISO-25
 70
     0
  3

  4

  5

  6

  7

 40
1.0
 41
2.5
 42
0.625
 43
3.75
 44
1.25
 45
0.0
 46
0.0
 47
0.0
 48
0.0
140
2.5
141
2.5
142
0.0
143
0.03937007874016
144
1.0
145
0.0
146
1.0
147
0.625
 71
     0
 72
     0
 73
     0
 74
     0
 75
     0
 76
     0
 77
     1
 78
     8
170
     0
171
     3
172
     1
173
     0
174
     0
175
     0
176
     0
177
     0
178
     0
  0
ENDTAB
  0
ENDSEC
  0
SECTION
  2
BLOCKS
  0
BLOCK
  8
0
  2
$MODEL_SPACE
 70
     0
 10
0.0
 20
0.0
 30
0.0
  3
$MODEL_SPACE
  1

  0
ENDBLK
  5
21
  8
0
  0
BLOCK
 67
     1
  8
0
  2
$PAPER_SPACE
 70
     0
 10
0.0
 20
0.0
 30
0.0
  3
$PAPER_SPACE
  1

  0
ENDBLK
  5
76
 67
     1
  8
0
  0
BLOCK
  8
0
  2
W123
 70
     0
 10
0.0
 20
0.0
 30
0.0
  3
W123
  1

  0
POLYLINE
  5
5D
  8
0
 66
     1
 10
0.0
 20
0.0
 30
0.0
 40
9.0
 41
9.0
  0
VERTEX
  5
33B
  8
0
 10
0.0
 20
0.0
 30
0.0
  0
VERTEX
  5
33C
  8
0
 10
123.0
 20
0.0
 30
0.0
  0
SEQEND
  5
33A
  8
0
  0
POLYLINE
  5
14B
  8
0
 66
     1
 10
0.0
 20
0.0
 30
0.0
 40
9.0
 41
9.0
  0
VERTEX
  5
33E
  8
0
 10
123.0
 20
12.5
 30
0.0
  0
VERTEX
  5
33F
  8
0
 10
52.10897725477864
 20
0.0
 30
0.0
  0
SEQEND
  5
33D
  8
0
  0
ENDBLK
  5
32C
  8
0
  0
BLOCK
  8
0
  2
WEICHE164
 70
     0
 10
0.0
 20
0.0
 30
0.0
  3
WEICHE164
  1

  0
POLYLINE
  5
14C
  8
0
 66
     1
 10
0.0
 20
0.0
 30
0.0
 40
9.0
 41
9.0
  0
VERTEX
  5
341
  8
0
 10
0.0
 20
0.0
 30
0.0
  0
VERTEX
  5
342
  8
0
 10
164.0
 20
0.0
 30
0.0
  0
SEQEND
  5
340
  8
0
  0
POLYLINE
  5
14D
  8
0
 66
     1
 10
0.0
 20
0.0
 30
0.0
 40
9.0
 41
9.0
  0
VERTEX
  5
344
  8
0
 10
93.10897725477864
 20
-0.0000000000000018
 30
0.0
  0
VERTEX
  5
345
  8
0
 10
164.0
 20
12.5
 30
0.0
  0
SEQEND
  5
343
  8
0
  0
ENDBLK
  5
32E
  8
0
  0
BLOCK
  8
0
  2
NRE-309
 70
     0
 10
0.0
 20
0.0
 30
0.0
  3
NRE-309
  1

  0
POLYLINE
  5
2B7
  8
0
 66
     1
 10
0.0
 20
0.0
 30
0.0
 40
9.0
 41
9.0
  0
VERTEX
  5
347
  8
0
 10
1795.5
 20
-76.29577630242784
 30
0.0
  0
VERTEX
  5
348
  8
0
 10
1795.5
 20
-93.70422369757216
 30
0.0
  0
SEQEND
  5
346
  8
0
  0
POLYLINE
  5
2B8
  8
0
 66
     1
 10
0.0
 20
0.0
 30
0.0
 40
9.0
 41
9.0
  0
VERTEX
  5
34A
  8
0
 10
1795.5
 20
-16.29577630242784
 30
0.0
  0
VERTEX
  5
34B
  8
0
 10
1795.5
 20
-33.70422369757216
 30
0.0
  0
SEQEND
  5
349
  8
0
  0
POLYLINE
  5
2B9
  8
0
 66
     1
 10
0.0
 20
0.0
 30
0.0
 40
9.0
 41
9.0
  0
VERTEX
  5
34D
  8
0
 10
1795.5
 20
8.704223697572161
 30
0.0
  0
VERTEX
  5
34E
  8
0
 10
1795.5
 20
-8.704223697572161
 30
0.0
  0
SEQEND
  5
34C
  8
0
  0
POLYLINE
  5
2BA
  8
0
 66
     1
 10
0.0
 20
0.0
 30
0.0
 40
9.0
 41
9.0
  0
VERTEX
  5
350
  8
0
 10
1795.5
 20
77.33215648709302
 30
0.0
  0
VERTEX
  5
351
  8
0
 10
1795.5
 20
59.9237090919487
 30
0.0
  0
SEQEND
  5
34F
  8
0
  0
INSERT
  5
2BB
  8
0
  2
W123
 10
364.0000000000002
 20
0.0
 30
0.0
  0
INSERT
  5
2BC
  8
0
  2
W123
 10
528.0000000000002
 20
-25.0
 30
0.0
 41
-1.0
 50
180.0
  0
POLYLINE
  5
2BD
  8
0
 66
     1
 10
0.0
 20
0.0
 30
0.0
 40
9.0
 41
9.0
  0
VERTEX
  5
353
  8
0
 10
651.0000000000002
 20
-37.5
 30
0.0
  0
VERTEX
  5
354
  8
0
 10
836.7916524527343
 20
-70.26008111783449
 30
0.0
  0
SEQEND
  5
352
  8
0
  0
LINE
  5
2BE
  8
0
 10
1298.813137840553
 20
110.2701287414348
 30
0.0
 11
1298.723385163737
 21
123.7578643897559
 31
0.0
  0
POLYLINE
  5
2BF
  8
0
 66
     1
 10
0.0
 20
0.0
 30
0.0
 40
9.0
 41
9.0
  0
VERTEX
  5
356
  8
0
 10
1738.509920312224
 20
102.1422533997447
 30
0.0
  0
VERTEX
  5
357
  8
0
 10
1738.509920312224
 20
84.73380600460223
 30
0.0
  0
SEQEND
  5
355
  8
0
  0
POLYLINE
  5
2C0
  8
0
 66
     1
 10
0.0
 20
0.0
 30
0.0
 40
9.0
 41
9.0
  0
VERTEX
  5
359
  8
0
 10
569.0000000000002
 20
-25.0
 30
0.0
  0
VERTEX
  5
35A
  8
0
 10
1000.0
 20
-25.0
 30
0.0
  0
SEQEND
  5
358
  8
0
  0
POLYLINE
  5
2C1
  8
0
 66
     1
 10
0.0
 20
0.0
 30
0.0
 40
9.0
 41
9.0
  0
VERTEX
  5
35C
  8
0
 10
446.0000000000002
 20
0.0
 30
0.0
  0
VERTEX
  5
35D
  8
0
 10
1000.0
 20
0.0
 30
0.0
  0
SEQEND
  5
35B
  8
0
  0
INSERT
  5
2C2
  8
0
  2
WEICHE164
 10
713.622882126326
 20
52.45972856478511
 30
0.0
 41
-1.0
 50
190.0000000000551
  0
INSERT
  5
2C3
  8
0
  2
WEICHE164
 10
200.0000000000002
 20
0.0
 30
0.0
 41
-1.0
 50
180.0
  0
INSERT
  5
2C4
  8
0
  2
WEICHE164
 10
528.0000000000002
 20
-25.0
 30
0.0
 41
-1.0
  0
INSERT
  5
2C5
  8
0
  2
WEICHE164
 10
1259.295775418134
 20
-25.0
 30
0.0
  0
POLYLINE
  5
2C6
  8
0
 66
     1
 10
0.0
 20
0.0
 30
0.0
 40
9.0
 41
9.0
  0
VERTEX
  5
35F
  8
0
 10
1000.0
 20
0.0
 30
0.0
  0
VERTEX
  5
360
  8
0
 10
1423.295775418134
 20
0.0
 30
0.0
  0
SEQEND
  5
35E
  8
0
  0
POLYLINE
  5
2C7
  8
0
 66
     1
 10
0.0
 20
0.0
 30
0.0
 40
9.0
 41
9.0
  0
VERTEX
  5
362
  8
0
 10
1000.0
 20
-25.0
 30
0.0
  0
VERTEX
  5
363
  8
0
 10
1259.295775418134
 20
-25.0
 30
0.0
  0
SEQEND
  5
361
  8
0
  0
POLYLINE
  5
2C8
  8
0
 66
     1
 10
0.0
 20
0.0
 30
0.0
 40
9.0
 41
9.0
  0
VERTEX
  5
365
  8
0
 10
200.0000000000002
 20
-25.0
 30
0.0
  0
VERTEX
  5
366
  8
0
 10
364.0000000000002
 20
-25.0
 30
0.0
  0
SEQEND
  5
364
  8
0
  0
LINE
  5
2C9
  8
0
 10
810.4930955790571
 20
-36.5
 30
0.0
 11
1000.0
 21
-36.5
 31
0.0
  0
POLYLINE
  5
2CA
  8
0
 66
     1
 10
0.0
 20
0.0
 30
0.0
 40
9.0
 41
9.0
  0
VERTEX
  5
368
  8
0
 10
487.0000000000002
 20
12.5
 30
0.0
  0
VERTEX
  5
369
  8
0
 10
713.622882126326
 20
52.45972856478511
 30
0.0
  0
SEQEND
  5
367
  8
0
  0
INSERT
  5
2CB
  8
0
  2
W123
 10
998.1313536205055
 20
93.43802970217439
 30
0.0
 50
180.0
  0
LINE
  5
2CC
  8
0
 10
475.1433367492261
 20
110.4300434755787
 30
0.0
 11
581.1359189261459
 21
110.4300434755787
 31
0.0
  0
LINE
  5
2CD
  8
0
 10
475.1433367492261
 20
165.4988152211281
 30
0.0
 11
582.9123309179379
 21
165.4988152211281
 31
0.0
  0
LINE
  5
2CE
  8
0
 10
810.4930955790703
 20
-52.30414837434546
 30
0.0
 11
927.0181755326792
 21
-69.79717338769297
 31
0.0
  0
LINE
  5
2CF
  8
0
 10
927.0181755326792
 20
-69.79717338769297
 30
0.0
 11
1000.000000000013
 21
-73.5
 31
0.0
  0
POLYLINE
  5
2D0
  8
0
 66
     1
 10
0.0
 20
0.0
 30
0.0
 40
9.0
 41
9.0
  0
VERTEX
  5
36B
  8
0
 10
836.9430599397413
 20
-70.26059341261498
 30
0.0
 42
0.0434100800991988
  0
VERTEX
  5
36C
  8
0
 10
1000.151407487007
 20
-85.00051229478049
 30
0.0
 42
23.0361242760863
  0
SEQEND
  5
36A
  8
0
  0
LINE
  5
2D1
  8
0
 10
999.5558239736304
 20
11.57890054225572
 30
0.0
 11
639.4473223819725
 21
11.5
 31
0.0
  0
POLYLINE
  5
2D2
  8
0
 66
     1
 10
0.0
 20
0.0
 30
0.0
 40
9.0
 41
9.0
  0
VERTEX
  5
36E
  8
0
 10
1587.295775418134
 20
0.0
 30
0.0
  0
VERTEX
  5
36F
  8
0
 10
1800.0
 20
0.0
 30
0.0
  0
SEQEND
  5
36D
  8
0
  0
LINE
  5
2D3
  8
0
 10
639.4473223819725
 20
11.5
 30
0.0
 11
639.8914984083419
 21
26.16059006698743
 31
0.0
  0
LINE
  5
2D4
  8
0
 10
639.8914984083419
 20
26.16059006698743
 30
0.0
 11
806.9646821414551
 21
57.02316639058881
 31
0.0
  0
LINE
  5
2D5
  8
0
 10
806.9646821414551
 20
57.02316639058881
 30
0.0
 11
1000.0
 21
57.12793278952086
 31
0.0
  0
POLYLINE
  5
2D6
  8
0
 66
     1
 10
0.0
 20
0.0
 30
0.0
 70
     1
  0
VERTEX
  5
371
  8
0
 10
1100.0
 20
14.38561355535057
 30
0.0
  0
VERTEX
  5
372
  8
0
 10
1244.0
 20
14.38561355535057
 30
0.0
  0
VERTEX
  5
373
  8
0
 10
1244.0
 20
54.38561355535057
 30
0.0
  0
VERTEX
  5
374
  8
0
 10
1100.0
 20
54.38561355535057
 30
0.0
  0
SEQEND
  5
370
  8
0
  0
LINE
  5
2D7
  8
0
 10
810.4930955790571
 20
-36.5
 30
0.0
 11
810.4930955790703
 21
-52.30414837434546
 31
0.0
  0
POLYLINE
  5
2D8
  8
0
 66
     1
 10
0.0
 20
0.0
 30
0.0
 70
     1
  0
VERTEX
  5
376
  8
0
 10
1100.0
 20
-75.23612221346957
 30
0.0
  0
VERTEX
  5
377
  8
0
 10
1244.0
 20
-75.23612221346957
 30
0.0
  0
VERTEX
  5
378
  8
0
 10
1244.0
 20
-35.23612221346957
 30
0.0
  0
VERTEX
  5
379
  8
0
 10
1100.0
 20
-35.23612221346957
 30
0.0
  0
SEQEND
  5
375
  8
0
  0
LINE
  5
2D9
  8
0
 10
1013.819221391618
 20
110.2701287414348
 30
0.0
 11
1298.813137840553
 21
110.2701287414348
 31
0.0
  0
LINE
  5
2DA
  8
0
 10
1013.819221391618
 20
110.2701287414348
 30
0.0
 11
1013.729468714803
 21
123.7578643897559
 31
0.0
  0
LINE
  5
2DB
  8
0
 10
475.1433367492261
 20
110.4300434755787
 30
0.0
 11
319.0941740789524
 21
110.4300434755787
 31
0.0
  0
LINE
  5
2DC
  8
0
 10
319.0941740789524
 20
110.4300434755787
 30
0.0
 11
319.0941740789524
 21
77.41569705395705
 31
0.0
  0
LINE
  5
2DD
  8
0
 10
319.0941740789524
 20
77.41569705395705
 30
0.0
 11
250.1311511222455
 21
77.41569705395705
 31
0.0
  0
LINE
  5
2DE
  8
0
 10
250.1311511222455
 20
77.41569705395705
 30
0.0
 11
250.1311511222455
 21
165.4988152211281
 31
0.0
  0
LINE
  5
2DF
  8
0
 10
250.1311511222455
 20
165.4988152211281
 30
0.0
 11
475.1433367492261
 21
165.4988152211281
 31
0.0
  0
LINE
  5
2E0
  8
0
 10
475.1433367492261
 20
110.4300434755787
 30
0.0
 11
475.1433367492261
 21
165.4988152211281
 31
0.0
  0
LINE
  5
2E1
  8
0
 10
603.7452419935446
 20
110.2701287414348
 30
0.0
 11
603.6554893167288
 21
123.7578643897559
 31
0.0
  0
LINE
  5
2E2
  8
0
 10
800.5711401128567
 20
110.2701287414348
 30
0.0
 11
800.4813874360409
 21
123.7578643897559
 31
0.0
  0
LINE
  5
2E3
  8
0
 10
603.7452419935446
 20
110.2701287414348
 30
0.0
 11
800.5711401128567
 21
110.2701287414348
 31
0.0
  0
POLYLINE
  5
2E4
  8
0
 66
     1
 10
0.0
 20
0.0
 30
0.0
 70
     1
  0
VERTEX
  5
37B
  8
0
 10
1328.935112843993
 20
110.1608041031795
 30
0.0
  0
VERTEX
  5
37C
  8
0
 10
1401.514492367455
 20
110.1608041031795
 30
0.0
  0
VERTEX
  5
37D
  8
0
 10
1401.514492367455
 20
161.2962760401642
 30
0.0
  0
VERTEX
  5
37E
  8
0
 10
1328.935112843993
 20
161.2962760401642
 30
0.0
  0
SEQEND
  5
37A
  8
0
  0
POLYLINE
  5
2E5
  8
0
 66
     1
 10
0.0
 20
0.0
 30
0.0
 70
     1
  0
VERTEX
  5
380
  8
0
 10
1401.514492367455
 20
120.4703750582175
 30
0.0
  0
VERTEX
  5
381
  8
0
 10
1633.273647436691
 20
120.4703750582175
 30
0.0
  0
VERTEX
  5
382
  8
0
 10
1633.273647436691
 20
183.7164368762624
 30
0.0
  0
VERTEX
  5
383
  8
0
 10
1401.514492367455
 20
183.7164368762624
 30
0.0
  0
SEQEND
  5
37F
  8
0
  0
POLYLINE
  5
2E6
  8
0
 66
     1
 10
0.0
 20
0.0
 30
0.0
 70
     1
  0
VERTEX
  5
385
  8
0
 10
1667.654582942642
 20
110.1608041031795
 30
0.0
  0
VERTEX
  5
386
  8
0
 10
1401.514492367455
 20
110.1608041031795
 30
0.0
  0
VERTEX
  5
387
  8
0
 10
1401.514492367455
 20
120.4703750582175
 30
0.0
  0
VERTEX
  5
388
  8
0
 10
1667.654582942642
 20
120.4703750582175
 30
0.0
  0
SEQEND
  5
384
  8
0
  0
POLYLINE
  5
2E7
  8
0
 66
     1
 10
0.0
 20
0.0
 30
0.0
 70
     1
  0
VERTEX
  5
38A
  8
0
 10
1401.514492367455
 20
183.7164368762624
 30
0.0
  0
VERTEX
  5
38B
  8
0
 10
1636.282701802755
 20
183.7164368762624
 30
0.0
  0
VERTEX
  5
38C
  8
0
 10
1636.282701802755
 20
194.0260078312986
 30
0.0
  0
VERTEX
  5
38D
  8
0
 10
1401.514492367455
 20
194.0260078312986
 30
0.0
  0
SEQEND
  5
389
  8
0
  0
POLYLINE
  5
2E8
  8
0
 66
     1
 10
0.0
 20
0.0
 30
0.0
 70
     1
  0
VERTEX
  5
38F
  8
0
 10
272.312365672746
 20
23.28930970521651
 30
0.0
  0
VERTEX
  5
390
  8
0
 10
344.3692421272106
 20
23.28930970521651
 30
0.0
  0
VERTEX
  5
391
  8
0
 10
344.3692421272106
 20
49.07808654155087
 30
0.0
  0
VERTEX
  5
392
  8
0
 10
272.312365672746
 20
49.07808654155087
 30
0.0
  0
SEQEND
  5
38E
  8
0
  0
POLYLINE
  5
2E9
  8
0
 66
     1
 10
0.0
 20
0.0
 30
0.0
 70
     1
  0
VERTEX
  5
394
  8
0
 10
1244.0
 20
14.38561355535057
 30
0.0
  0
VERTEX
  5
395
  8
0
 10
1388.0
 20
14.38561355535057
 30
0.0
  0
VERTEX
  5
396
  8
0
 10
1388.0
 20
54.38561355535057
 30
0.0
  0
VERTEX
  5
397
  8
0
 10
1244.0
 20
54.38561355535057
 30
0.0
  0
SEQEND
  5
393
  8
0
  0
POLYLINE
  5
2EA
  8
0
 66
     1
 10
0.0
 20
0.0
 30
0.0
 70
     1
  0
VERTEX
  5
399
  8
0
 10
1244.0
 20
-75.23612221346957
 30
0.0
  0
VERTEX
  5
39A
  8
0
 10
1388.0
 20
-75.23612221346957
 30
0.0
  0
VERTEX
  5
39B
  8
0
 10
1388.0
 20
-35.23612221346957
 30
0.0
  0
VERTEX
  5
39C
  8
0
 10
1244.0
 20
-35.23612221346957
 30
0.0
  0
SEQEND
  5
398
  8
0
  0
TEXT
  5
2EB
  8
0
 10
306.6512076349975
 20
-171.1304212872728
 30
0.0
 40
50.0
  1
NRE-309, Neuntal, DiLue
  0
POLYLINE
  5
2EC
  8
0
 66
     1
 10
0.0
 20
0.0
 30
0.0
 40
9.0
 41
9.0
  0
VERTEX
  5
39E
  8
0
 10
0.0
 20
0.0
 30
0.0
  0
VERTEX
  5
39F
  8
0
 10
200.0000000000002
 20
0.0
 30
0.0
  0
SEQEND
  5
39D
  8
0
  0
POLYLINE
  5
2ED
  8
0
 66
     1
 10
0.0
 20
0.0
 30
0.0
 40
9.0
 41
9.0
  0
VERTEX
  5
3A1
  8
0
 10
80.00000000000023
 20
-16.29577630242784
 30
0.0
  0
VERTEX
  5
3A2
  8
0
 10
80.00000000000023
 20
-33.70422369757216
 30
0.0
  0
SEQEND
  5
3A0
  8
0
  0
POLYLINE
  5
2EE
  8
0
 66
     1
 10
0.0
 20
0.0
 30
0.0
 70
     1
  0
VERTEX
  5
3A4
  8
0
 10
0.0
 20
-200.0
 30
0.0
  0
VERTEX
  5
3A5
  8
0
 10
1800.0
 20
-200.0
 30
0.0
  0
VERTEX
  5
3A6
  8
0
 10
1800.0
 20
200.0
 30
0.0
  0
VERTEX
  5
3A7
  8
0
 10
0.0
 20
200.0
 30
0.0
  0
SEQEND
  5
3A3
  8
0
  0
POLYLINE
  5
2EF
  8
0
 66
     1
 10
0.0
 20
0.0
 30
0.0
 70
     1
  0
VERTEX
  5
3A9
  8
0
 10
1582.691704611372
 20
53.08386074447117
 30
0.0
  0
VERTEX
  5
3AA
  8
0
 10
1616.359886831948
 20
53.08386074447117
 30
0.0
  0
VERTEX
  5
3AB
  8
0
 10
1616.359886831948
 20
84.17200483457054
 30
0.0
  0
VERTEX
  5
3AC
  8
0
 10
1582.691704611372
 20
84.17200483457054
 30
0.0
  0
SEQEND
  5
3A8
  8
0
  0
POLYLINE
  5
2F0
  8
0
 66
     1
 10
0.0
 20
0.0
 30
0.0
 70
     1
  0
VERTEX
  5
3AE
  8
0
 10
1521.849860719891
 20
-15.54407204504969
 30
0.0
  0
VERTEX
  5
3AF
  8
0
 10
1555.518042940466
 20
-15.54407204504969
 30
0.0
  0
VERTEX
  5
3B0
  8
0
 10
1555.518042940466
 20
15.54407204504969
 30
0.0
  0
VERTEX
  5
3B1
  8
0
 10
1521.849860719891
 20
15.54407204504969
 30
0.0
  0
SEQEND
  5
3AD
  8
0
  0
POLYLINE
  5
2F1
  8
0
 66
     1
 10
0.0
 20
0.0
 30
0.0
 70
     1
  0
VERTEX
  5
3B3
  8
0
 10
1582.691704611372
 20
-40.35416895770322
 30
0.0
  0
VERTEX
  5
3B4
  8
0
 10
1616.359886831948
 20
-40.35416895770322
 30
0.0
  0
VERTEX
  5
3B5
  8
0
 10
1616.359886831948
 20
-9.266024867603846
 30
0.0
  0
VERTEX
  5
3B6
  8
0
 10
1582.691704611372
 20
-9.266024867603846
 30
0.0
  0
SEQEND
  5
3B2
  8
0
  0
POLYLINE
  5
2F2
  8
0
 66
     1
 10
0.0
 20
0.0
 30
0.0
 70
     1
  0
VERTEX
  5
3B8
  8
0
 10
1582.539713470681
 20
-100.5440720450497
 30
0.0
  0
VERTEX
  5
3B9
  8
0
 10
1616.207895691257
 20
-100.5440720450497
 30
0.0
  0
VERTEX
  5
3BA
  8
0
 10
1616.207895691257
 20
-69.45592795495031
 30
0.0
  0
VERTEX
  5
3BB
  8
0
 10
1582.539713470681
 20
-69.45592795495031
 30
0.0
  0
SEQEND
  5
3B7
  8
0
  0
POLYLINE
  5
2F3
  8
0
 66
     1
 10
0.0
 20
0.0
 30
0.0
 70
     1
  0
VERTEX
  5
3BD
  8
0
 10
563.4445816291534
 20
77.8939576571247
 30
0.0
  0
VERTEX
  5
3BE
  8
0
 10
597.1127638497289
 20
77.8939576571247
 30
0.0
  0
VERTEX
  5
3BF
  8
0
 10
597.1127638497289
 20
108.9821017472241
 30
0.0
  0
VERTEX
  5
3C0
  8
0
 10
563.4445816291534
 20
108.9821017472241
 30
0.0
  0
SEQEND
  5
3BC
  8
0
  0
POLYLINE
  5
2F4
  8
0
 66
     1
 10
0.0
 20
0.0
 30
0.0
 40
9.0
 41
9.0
  0
VERTEX
  5
3C2
  8
0
 10
80.00000000000023
 20
-25.0
 30
0.0
  0
VERTEX
  5
3C3
  8
0
 10
166.3318177794247
 20
-25.0
 30
0.0
  0
SEQEND
  5
3C1
  8
0
  0
TEXT
  5
2F5
  8
0
 10
569.083782298045
 20
87.56392932796189
 30
0.0
 40
15.0
  1
1a
  0
POLYLINE
  5
2F6
  8
0
 66
     1
 10
0.0
 20
0.0
 30
0.0
 40
9.0
 41
9.0
  0
VERTEX
  5
3C5
  8
0
 10
319.0941740789524
 20
93.43802970217439
 30
0.0
  0
VERTEX
  5
3C6
  8
0
 10
563.4445816291534
 20
93.43802970217439
 30
0.0
  0
SEQEND
  5
3C4
  8
0
  0
POLYLINE
  5
2F7
  8
0
 66
     1
 10
0.0
 20
0.0
 30
0.0
 40
9.0
 41
9.0
  0
VERTEX
  5
3C8
  8
0
 10
597.1127638497289
 20
93.43802970217439
 30
0.0
  0
VERTEX
  5
3C9
  8
0
 10
875.1313536205055
 20
93.43802970217439
 30
0.0
  0
SEQEND
  5
3C7
  8
0
  0
TEXT
  5
2F8
  8
0
 10
170.2068679704687
 20
-30.8741003742125
 30
0.0
 40
15.0
  1
4a
  0
POLYLINE
  5
2F9
  8
0
 66
     1
 10
0.0
 20
0.0
 30
0.0
 70
     1
  0
VERTEX
  5
3CB
  8
0
 10
166.3318177794247
 20
-40.54407204504969
 30
0.0
  0
VERTEX
  5
3CC
  8
0
 10
200.0000000000002
 20
-40.54407204504969
 30
0.0
  0
VERTEX
  5
3CD
  8
0
 10
200.0000000000002
 20
-9.455927954950312
 30
0.0
  0
VERTEX
  5
3CE
  8
0
 10
166.3318177794247
 20
-9.455927954950312
 30
0.0
  0
SEQEND
  5
3CA
  8
0
  0
POLYLINE
  5
2FA
  8
0
 66
     1
 10
0.0
 20
0.0
 30
0.0
 40
9.0
 41
9.0
  0
VERTEX
  5
3D0
  8
0
 10
998.1313536205055
 20
93.43802970217439
 30
0.0
  0
VERTEX
  5
3D1
  8
0
 10
1521.849860719891
 20
93.43802970217439
 30
0.0
  0
SEQEND
  5
3CF
  8
0
  0
POLYLINE
  5
2FB
  8
0
 66
     1
 10
0.0
 20
0.0
 30
0.0
 40
9.0
 41
9.0
  0
VERTEX
  5
3D3
  8
0
 10
1555.518042940466
 20
93.43802970217439
 30
0.0
  0
VERTEX
  5
3D4
  8
0
 10
1738.509920312224
 20
93.43802970217439
 30
0.0
  0
SEQEND
  5
3D2
  8
0
  0
POLYLINE
  5
2FC
  8
0
 66
     1
 10
0.0
 20
0.0
 30
0.0
 40
9.0
 41
9.0
  0
VERTEX
  5
3D6
  8
0
 10
877.3019558411627
 20
68.62793278952631
 30
0.0
  0
VERTEX
  5
3D7
  8
0
 10
1582.691704611372
 20
68.62793278952086
 30
0.0
  0
SEQEND
  5
3D5
  8
0
  0
POLYLINE
  5
2FD
  8
0
 66
     1
 10
0.0
 20
0.0
 30
0.0
 40
9.0
 41
9.0
  0
VERTEX
  5
3D9
  8
0
 10
1616.359886831948
 20
68.62793278952086
 30
0.0
  0
VERTEX
  5
3DA
  8
0
 10
1795.5
 20
68.62793278952086
 30
0.0
  0
SEQEND
  5
3D8
  8
0
  0
POLYLINE
  5
2FE
  8
0
 66
     1
 10
0.0
 20
0.0
 30
0.0
 70
     1
  0
VERTEX
  5
3DC
  8
0
 10
1521.849860719891
 20
77.8939576571247
 30
0.0
  0
VERTEX
  5
3DD
  8
0
 10
1555.518042940466
 20
77.8939576571247
 30
0.0
  0
VERTEX
  5
3DE
  8
0
 10
1555.518042940466
 20
108.9821017472241
 30
0.0
  0
VERTEX
  5
3DF
  8
0
 10
1521.849860719891
 20
108.9821017472241
 30
0.0
  0
SEQEND
  5
3DB
  8
0
  0
TEXT
  5
2FF
  8
0
 10
1529.727348663176
 20
87.56392932796189
 30
0.0
 40
15.0
  1
1b
  0
POLYLINE
  5
300
  8
0
 66
     1
 10
0.0
 20
0.0
 30
0.0
 40
9.0
 41
9.0
  0
VERTEX
  5
3E1
  8
0
 10
1423.295775418134
 20
0.0
 30
0.0
  0
VERTEX
  5
3E2
  8
0
 10
1521.849860719891
 20
0.0
 30
0.0
  0
SEQEND
  5
3E0
  8
0
  0
POLYLINE
  5
301
  8
0
 66
     1
 10
0.0
 20
0.0
 30
0.0
 40
9.0
 41
9.0
  0
VERTEX
  5
3E4
  8
0
 10
1555.518042940466
 20
0.0
 30
0.0
  0
VERTEX
  5
3E5
  8
0
 10
1587.295775418134
 20
0.0
 30
0.0
  0
SEQEND
  5
3E3
  8
0
  0
POLYLINE
  5
302
  8
0
 66
     1
 10
0.0
 20
0.0
 30
0.0
 40
9.0
 41
9.0
  0
VERTEX
  5
3E7
  8
0
 10
1423.295775418134
 20
-12.5
 30
0.0
  0
VERTEX
  5
3E8
  8
0
 10
1494.186798163355
 20
0.0
 30
0.0
  0
SEQEND
  5
3E6
  8
0
  0
LINE
  5
303
  8
0
 10
999.5558239736304
 20
11.57890054225572
 30
0.0
 11
1521.849860719891
 21
11.57890054225572
 31
0.0
  0
LINE
  5
304
  8
0
 10
1555.518042940466
 20
11.57890054225572
 30
0.0
 11
1799.55582397363
 21
11.57890054225572
 31
0.0
  0
POLYLINE
  5
305
  8
0
 66
     1
 10
0.0
 20
0.0
 30
0.0
 40
9.0
 41
9.0
  0
VERTEX
  5
3EA
  8
0
 10
1423.295775418134
 20
-25.0
 30
0.0
  0
VERTEX
  5
3EB
  8
0
 10
1582.691704611372
 20
-25.0
 30
0.0
  0
SEQEND
  5
3E9
  8
0
  0
POLYLINE
  5
306
  8
0
 66
     1
 10
0.0
 20
0.0
 30
0.0
 40
9.0
 41
9.0
  0
VERTEX
  5
3ED
  8
0
 10
1616.359886831948
 20
-24.81009691265354
 30
0.0
  0
VERTEX
  5
3EE
  8
0
 10
1795.5
 20
-25.0
 30
0.0
  0
SEQEND
  5
3EC
  8
0
  0
LINE
  5
307
  8
0
 10
1616.359886831948
 20
-36.5
 30
0.0
 11
1800.0
 21
-36.5
 31
0.0
  0
LINE
  5
308
  8
0
 10
1582.691704611372
 20
-36.5
 30
0.0
 11
1000.0
 21
-36.5
 31
0.0
  0
LINE
  5
309
  8
0
 10
1616.207895691257
 20
-73.5
 30
0.0
 11
1800.000000000013
 21
-73.5
 31
0.0
  0
LINE
  5
30A
  8
0
 10
1582.539713470681
 20
-73.5
 30
0.0
 11
1000.000000000013
 21
-73.5
 31
0.0
  0
LINE
  5
30B
  8
0
 10
1000.0
 20
57.12793278952086
 30
0.0
 11
1582.691704611372
 21
57.12793278952086
 31
0.0
  0
LINE
  5
30C
  8
0
 10
1616.359886831948
 20
57.12793278952086
 30
0.0
 11
1800.0
 21
57.12793278952086
 31
0.0
  0
POLYLINE
  5
30D
  8
0
 66
     1
 10
0.0
 20
0.0
 30
0.0
 40
9.0
 41
9.0
  0
VERTEX
  5
3F0
  8
0
 10
1582.539713470681
 20
-85.0
 30
0.0
  0
VERTEX
  5
3F1
  8
0
 10
1000.000000000013
 20
-85.0
 30
0.0
  0
SEQEND
  5
3EF
  8
0
  0
POLYLINE
  5
30E
  8
0
 66
     1
 10
0.0
 20
0.0
 30
0.0
 40
9.0
 41
9.0
  0
VERTEX
  5
3F3
  8
0
 10
1616.207895691257
 20
-85.0
 30
0.0
  0
VERTEX
  5
3F4
  8
0
 10
1795.5
 20
-85.0
 30
0.0
  0
SEQEND
  5
3F2
  8
0
  0
LINE
  5
30F
  8
0
 10
200.0000000000002
 20
-200.0
 30
0.0
 11
200.0000000000002
 21
-176.4211321635412
 31
0.0
  0
LINE
  5
310
  8
0
 10
1000.0
 20
-200.0
 30
0.0
 11
1000.0
 21
-176.4211321635412
 31
0.0
  0
LINE
  5
311
  8
0
 10
999.9999999999998
 20
200.0
 30
0.0
 11
999.9999999999998
 21
176.4211321635412
 31
0.0
  0
LINE
  5
312
  8
0
 10
199.9999999999998
 20
200.0
 30
0.0
 11
199.9999999999998
 21
176.4211321635412
 31
0.0
  0
TEXT
  5
313
  8
0
 10
267.7303884462383
 20
124.2869167092631
 30
0.0
 40
10.0
  1
Kopf/Seitenrampe
  0
TEXT
  5
314
  8
0
 10
638.6111124720003
 20
123.4836704079662
 30
0.0
 40
10.0
  1
Ladestrasse 1
  0
TEXT
  5
315
  8
0
 10
1086.126600501206
 20
120.6372874107947
 30
0.0
 40
10.0
  1
Ladestrasse 2
  0
TEXT
  5
316
  8
0
 10
1485.058889026723
 20
135.2726176592114
 30
0.0
 40
10.0
  1
Güterhalle
  0
TEXT
  5
317
  8
0
 10
105.1305125129768
 20
-61.60190337588756
 30
0.0
 40
10.0
  1
Ziehgleis/Lokwartegleis
  0
TEXT
  5
318
  8
0
 10
1594.904843423734
 20
62.75383241530835
 30
0.0
 40
15.0
  1
2
  0
TEXT
  5
319
  8
0
 10
1534.062999532252
 20
-5.874100374212503
 30
0.0
 40
15.0
  1
3
  0
TEXT
  5
31A
  8
0
 10
1594.904843423734
 20
-30.68419728686604
 30
0.0
 40
15.0
  1
4
  0
TEXT
  5
31B
  8
0
 10
1594.752852283043
 20
-90.87410037421068
 30
0.0
 40
15.0
  1
5
  0
TEXT
  5
31C
  8
0
 10
14.08555978528398
 20
182.7915207643509
 30
0.0
 40
10.0
  1
1
  0
TEXT
  5
31D
  8
0
 10
214.085559785284
 20
182.7915207643509
 30
0.0
 40
10.0
  1
2
  0
TEXT
  5
31E
  8
0
 10
1014.085559785284
 20
182.7915207643509
 30
0.0
 40
10.0
  1
3
  0
LINE
  5
31F
  8
0
 62
     2
 10
200.0000000000002
 20
-900.0
 30
0.0
 11
1800.0
 21
-900.0
 31
0.0
  0
LINE
  5
320
  8
0
 62
     2
 10
200.0000000000002
 20
-200.0
 30
0.0
 11
200.0000000000002
 21
-900.0
 31
0.0
  0
LINE
  5
321
  8
0
 62
     2
 10
1800.0
 20
-200.0
 30
0.0
 11
1800.0
 21
-900.0
 31
0.0
  0
LINE
  5
322
  8
0
 62
     2
 10
200.0000000000002
 20
200.0
 30
0.0
 11
200.0000000000002
 21
900.0
 31
0.0
  0
LINE
  5
323
  8
0
 62
     2
 10
1800.0
 20
200.0
 30
0.0
 11
1800.0
 21
900.0
 31
0.0
  0
LINE
  5
324
  8
0
 62
     2
 10
200.0000000000002
 20
900.0
 30
0.0
 11
1800.0
 21
900.0
 31
0.0
  0
ENDBLK
  5
330
  8
0
  0
ENDSEC
  0
SECTION
  2
ENTITIES
  0
INSERT
  5
327
  8
0
  2
NRE-309
 10
0.0
 20
0.0
 30
0.0
  0
ENDSEC
  0
EOF
